videojugadores
Reloj
Noviembre 2018
LunMarMiérJueVieSábDom
   1234
567891011
12131415161718
19202122232425
2627282930  

Calendario Calendario

Buscar
 
 

Resultados por:
 


Rechercher Búsqueda avanzada

¿Quién está en línea?
En total hay 1 usuario en línea: 0 Registrados, 0 Ocultos y 1 Invitado

Ninguno

[ Ver toda la lista ]


La mayor cantidad de usuarios en línea fue 9 el Lun Jun 19, 2017 2:35 am.
Navegación
 Portal
 Índice
 Miembros
 Perfil
 FAQ
 Buscar
Últimos temas
Visitas

Contador web

Jaguares-Entre tus jardines

Ir abajo

Jaguares-Entre tus jardines

Mensaje  Admin Roberto el Mar Mar 23, 2010 1:12 am

Este es el riff que toca Saul en esta rola.
(riff 1)
E |------------------|-----------------
B |------------------|-----------------
G |------------------|-----------------
D |--5-5-5-5-5-5-5-5-|-5-5-5-5-5-5-5-5-
A |--5-5-5-5-5-5-5-5-|-5-5-5-5-5-5-5-5-
E |------------------|-----------------

E |------------------|-----------------
B |------------------|-----------------
G |------------------|-----------------
D |--5-5-5-5-5-5-5-5-|-5-5-5-5-5-5-5-5-
A |--4-4-4-4-4-4-4-4-|-4-4-4-4-4-4-4-4-
E |------------------|-----------------

E |------------------|-----------------
B |------------------|-----------------
G |------------------|-----------------
D |--5-5-5-5-5-5-5-5-|-5-5-5-5-5-5-5-5-
A |--3-3-3-3-3-3-3-3-|-3-3-3-3-3-3-3-3-
E |------------------|-----------------

E |------------------|-----------------
B |------------------|-----------------
G |------------------|-----------------
D |--3-3-3-3-3-3-3-3-|-3-3-3-3-3-3-3-3-
A |--2-2-2-2-2-2-2-2-|-2-2-2-2-2-2-2-2-
E |------------------|-----------------



( riff 1 )

Yo... me quise elevar

Sobre tu piel

Y cobijar mi aura.


( riff 1 )
Tú... flotaste más

Te fuiste ahí
B
Donde nadie te encuentra
C# D#m
Ni tus sueños, ni tus manos.


( riff 2 )

E|-----------------------------------|
B|---------------------------------6-|
G|-------5---5------5-------5---5----|
D|---7-7---7---7--7-----7-7---7------|
A|-----------------------------------|
E|-----------------------------------|

E|-----------------------------------|
B|-------------------------------6---|
G|------5---5-----5------5---5-------|
D|--6-6---6---6-6----6-6---6---------|
A|-----------------------------------|
E|-----------------------------------|

E|-----------------------------------|
B|-------------------------------5---|
G|------5---5-----5-------5---5------|
D|--5-5---5---5-5-----5-5---5--------|
A|-----------------------------------|
E|-----------------------------------|

( 2 veces ) ( 2 veces )
E|------------------| |-------------------|
B|------------------| |-------------------|
G|--4-4-4-4-4-4-4-4-| |--4-4-4-4-4-4-4-4--|
D|--3-3-3-3-3-3-3-3-| |--4-4-4-4-4-4-4-4--|
A|------------------| |-------------------|
E|------------------| |-------------------|


Yo... te seguí hasta ahí

Y naufrague

Y ahora floto en mi barco

Entre tus jardines.

( ahora sigue este riff 3 )
( 2 veces ) ( 2 veces )
E |-----------------|-----------------|
B |-----------------|-----------------|
G |-----------------|-----------------|
D |-5-5-5-5-5-5-5-5-|-5-5-5-5-5-5-5-5-|
A |-3-3-3-3-3-3-3-3-|-4-4-4-4-4-4-4-4-|
E |-----------------|-----------------|
( 2 veces ) ( 2 veces )
E |-----------------|-----------------|
B |-----------------|-----------------|
G |-----------------|-----------------|
D |-----------------|-----------------|
A |-7-7-7-7-7-7-7-7-|-9-9-9-9-9-9-9-9-|
E |-5-5-5-5-5-5-5-5-|-7-7-7-7-7-7-7-7-|

Ahh, Ahhh, Ahhhhh


( riff 1 )
Yo... quise cambiar

tu claridad

Y orientar mi causa.


( riff 1 )
Tú... cambiaste más

Te fuiste ahí
B
Donde los ciegos crean
C# D#m
Sus colores y sus formas.


( riff 2 )
Yo... te seguí hasta ahí

Y naufrague

Y ahora floto en mi barco

Entre tus jardines.


( riff 2 )
Yo... yo te seguí

Y naufrague

Y ahora floto en mi barco

Entre tus jardines.

( riff 3 )
Ahh, Ahhh, Ahhhh

Ahh, Ahhh, Ahhhh

Ahh, Ahhh, Ahhhh


( riff 1 )
Yo me quise elevar

Sobre tu piel

Y cobijar mi aura.
avatar
Admin Roberto
Sargento Primero
Sargento Primero

Sagitario Mono
Mensajes : 160
Fecha de inscripción : 13/03/2010
Edad : 25
Localización : San Luis Potosi Méx.

Hoja de personaje
Experincia:
100/100  (100/100)

Ver perfil de usuario http://videojugadores.forosactivos.net

Volver arriba Ir abajo

Volver arriba

- Temas similares

 
Permisos de este foro:
No puedes responder a temas en este foro.